Make your own free website on Tripod.com
Here's the tab for "Arrow"
It's in standard tuning.
Send any corrections, comments, or requests to sl_mcclure@hotmail.com.

Intro:

G-------------------2-2-----------------2-2-
D-------------------2-2-----------------2-2- Repeat.
A---4-4-4-2-4-4-4-4-0-0-4-4-4-2-4-4-4-4-0-0-
E---2-2-2-0-2-2-2-2-----2-2-2-0-2-2-2-2-----

G-------2-----------------
D-------2-4-2---2--------- Play 4 times
A-4-4-4-0-----4---4-3-2-0-
E-2-2-2-------------------

Verse:

G---------------------------4-4-
D-------------2-2-----------4-4- Play 3 times then:
A-------------2-2-----------2-2-
E---2-2-2-2-2-0-0-2-2-2-2-2-----

e-------------------------
B-------2-----------------
G-------2-----------------
D-------2-4-2---2---------
A-4-4-4-0-----4---4-3-2---
E-2-2-2-----------------0-

Pre-Chorus:

e------------------------------------------------
B--------------------------2-2---------------2-2-
G---4--4-2-2-2-------------2-2---------------2-2-
D---4--4-2-2-2-------------2-2---------4-4-4-2-2-
A---2--2-0-0-0-------4-4-4-0-0-4-4-4-2-4-4-4-0-0-
E--------------2-2-0-2-2-2-----2-2-2-0-2-2-2-----

e-------------------------
B-------------------------
G-4-4-4-4-4-2-2-2-2-2-2-2-
D-4-4-4-4-4-0-0-0-0-0-0-0-
A-2-2-2-2-2-0-0-0-0-0-0-0-
E-------------------------

Chorus:

e---------------------------
B---------2-----------------
G---------2-----------------
D---------2-4p2---2---------
A---4-4-4-0-----4---4-3-2-0-
E---2-2-2-------------------

E-mail me for the solo, it's crazy.
back to the tab page