Make your own free website on Tripod.com
Here's the tab for "A Stone's Throw Away"
It's in standard tuning.
Send any corrections, comments, or requests to sl_mcclure@hotmail.com.

Intro/Verse:

e-----------------------------------------------
B---5h6-6-6-x-5h6-6-6-x-5h6-6-6-5-x-x-5-x-x-5-x-
G---5-5-5-5-x-5-5-5-5-x-5-5-5-5-5-x-x-5-x-x-5-x-
D---5h7-7-7-x-5h7-7-7-x-5h7-7-7-5-x-x-5-x-x-5-x-
A-----------------------------------------------
E-----------------------------------------------
Pre-Chorus:
"High until you washed away..." C G F G

Chorus:
"I realized it through this song..." F C G(x4)

Bridge1: "You're just a stone's throw away..."

e---1-1-1-1-1/3-3-3-3-3-3/1-1-
B---1-1-1-1-1/3-3-3-3-3-3/1-1-
G---2-2-2-2-2/4-4-4-4-4-4/2-2-
D---3-3-3-3-3/5-5-5-5-5-5/3-3-
A---3-3-3-3-3/5-5-5-5-5-5/3-3-
E---1-1-1-1-1/3-3-3-3-3-3/1-1-

Play that 4 times, then play: A F G for the rest of the song.

There's a lot of lead and I'm still working on it. Sorry.

back to the tab page