Make your own free website on Tripod.com
Here's the tab for "Best Friend"
It's in standard tuning.
Send any corrections, comments, or requests to sl_mcclure@hotmail.com.

Intro: C#5 B5 A5

Verse:

e---0-0-0-0-0-2-2-2-2-2-4-4-4-4-4-7-7-7-7-7-
B---0-0-0-0-0-X-X-X-X-X-X-X-X-X-X-X-X-X-X-X-
G---1-1-1-1-1-X-X-X-X-X-X-X-X-X-X-X-X-X-X-X-
D---2-2-2-2-2-4-4-4-4-4-6-6-6-6-6-9-9-9-9-9-
A---2-2-2-2-2-X-X-X-X-X-X-X-X-X-X-X-X-X-X-X-
E---0-0-0-0-0-2-2-2-2-2-4-4-4-4-4-7-7-7-7-7-

e-------------------------
B-------------------------
G-------------------------
D-1-1-1-1-2-1-1-1-1-2-1-1-
A-0-0-0-0-0-0-0-0-0-0-0-0-
E-------------------------

e-----------------
B-----------------
G-----------------
D-1-1-2-1-1-1-1-2-
A-0-0-0-0-0-0-0-0-
E-----------------

Chorus: E                  F#11/E
        You've always been my habit now
        Then: A E(X4)

Bridge:

G-5-5---5-5---5-5-4-4---4-4---4-4-
D-----2-----2---------2-----2-----
Play 4 times, then C5 B5

back to the tab page