Make your own free website on Tripod.com
Here's the tab for "Blinders"
It's in standard tuning.
Send any corrections, comments, or requests to sl_mcclure@hotmail.com.

Intro/Verse:

e-2-2-0-0-3-2-2-0---2-2-0-0-3-2-
B-3-3-3-3-3-3-3-3---3-3-3-3-3-3-
G-2-2-2-2-2-2-2-2---2-2-2-2-2-2-
D-0-0-0-0-0-0-0-0---0-0-0-0-0-0-
A-----------------3-------------
E-------------------------------

e-------------------------------------
B----------------------------------0-2
G-----0-----0-------0-----0------2---2
D-0h2-----2---2---2---2-------2------2
A-------3-------3-------3---0--------0
E-------------------------------------

Pre-Chorus: C G C G

Chorus:

e-------------------------------------------
B-------------------------------------------
G---7-7-7-7-7-7-7-7-7-7-5-5-5-5-------------
D---7-7-7-0-0-7-7-7-7-7-5-5-5-5-5-5-5-5-5-5-
A---5-5-5-0-0-5-5-5-5-5-3-3-3-3-5-5-5-5-5-5-
E-------------------------------3-3-3-3-3-3-

Still working on the solo, but I should have it soon.

back to the tab page