Make your own free website on Tripod.com
Here's the tab for "Blossom"
It's in Dropped-D tuning.
Send any corrections, comments, or requests to sl_mcclure@hotmail.com.

Intro:

e-----------------------0---
B---------------------3---3-
G---------0---------0-------
D-----4-----4-----4---------
A-------5-----5-------------
D---0-----------5-----------

Verse:

e--------------0-----------------0-------------
B------------3---3-------------3---3-----------
G----------0-----------------0-----------0-----
D--------4-----------------4-----------0---0---
A--------------------------------------------5-
D------------------------------------5---------

e---------------------------------0---
B-------------------------------3---3-
G-----0-----0---------0-------0-------
D---------2---2---4-----4---4---------
A---8---3-------5---5-----5-----------
D-8-----------------------------------

Chorus: D G5 Bb5 C5

Bridge: D5 G5 E5 D5 D5 G5 E5 F5 D5

Again, just E-mail me for the solo.
back to the tab page