Make your own free website on Tripod.com
Here's the tab for "Bothered"
It's in standard tuning.
Send any corrections, comments, or requests to sl_mcclure@hotmail.com.

Intro: A, when band enters it's an F#5

Verse: F#5

Chorus: Am7 F#5

Solo:

e--------7--------------7------
B-12b------10p7---7-10b---10p7-
G-----9b--------9--------------

e---7----7------7--------7--------
B----------10p7---10p7-----10p7---
G9b---9b---------------9--------9-

e-7-------
B---10p7-- Repeat these 4 notes for 4 measures.
G--------9

e-10p7-10p7-----7----------- Repeat this
B-----------10b---10p7-10p7- pattern for 2 1/2
G--------------------------- measures, and end on:

e----------------
B---7------------
G-9---9br7---7---
D----------9---9-

That's it. The parts where you just play one chord, just follow the beat of the song.

back to the tab page