Make your own free website on Tripod.com
Here's the tab for "Butterfly"
It's in standard tuning.
Send any corrections, comments, or requests to sl_mcclure@hotmail.com.

Intro:

e---------------------------------------------------
B---------------------------------------------------
G-------4-------4-------4-------4-------4-------4---
D-----2---2---2---2---2---2---2---2---2---2---2---2-
A---3-------3-------2-------2-------3-------3-------
E---------------------------------------------------

e---------------
B-------0-----0-
G---------------
D-----4---4-----
A---2-------2---
E-0-------------

Verse:

e-----------------------------------
B-----------------------------------
G-------4-------4-------4-------4---
D-----2---2---2---2---2---2---2---2- Repeat, then:
A---3-------3-------2-------2-------
E-----------------------------------

e-------------------------------------------------
B-------------------------------------------------
G-----4-------4-------2-------2-------4-------4---
D---2---2---2---2---4---4---4---4---2---2---2---2-
A-3-------3-------2-------2-------3-------3-------
E-------------------------------------------------

e-----------
B-------0---
G-----------
D-----4---4- Then: Cmaj7 Bm Cmaj7 E59 (Repeat)
A---2-------
E-0---------

Chorus:
G5 B5 C5 B5
G5 B5 A5 B5
G5 B5 C5 B5

Bridge:

G-----4-4---4-4---4---2-2-2-2---2-
D-----2-2---2-2---2---4-4-4-4---4- Play 4 times
A---3-----3-----3---2---------2---

Outro:

G---0-0-0-0-0-0-0-0-2-2-2-2-2-2-2-2-0-0-0-0-0-0-0-
D---2-2-2-2-2-2-2-2-2-2-2-2-2-2-2-2-4-4-4-4-4-4-4-
A---3-3-3-3-3-3-3-3-4-4-4-4-4-4-4-4-5-5-5-5-5-5-5-

G-4-4-4-4-4-4-4-4-
D-4-4-4-4-4-4-4-4-
A-6-6-6-6-6-6-6-6-

back to the tab page