Make your own free website on Tripod.com
Here's the tab for "Can't Give In"
It's in Dropped-D tuning.
Send any corrections, comments, or requests to sl_mcclure@hotmail.com.

Intro:

    G5  D5  A5
e-------------------
B-------------------
G-------7-7-2-2-2-2- Play 3 times then:
D---5-5-7-7-2-2-2-2-
A---5-5-5-5-0-0-0-0-
D---5-5-------------

G5 D5 A5
e-------
B-------
G---7-2-
D-5-7-2-
A-5-5-0-
D-5-----

Verse:

A--------------------- Play that 8 times
D---5-5-5-7-7-7-7-7-7-

Chorus:

    D5      C5      A5
e-------------------------------------
B-------------------------------------
G---7-7-7-7-5-5-5-5-2-x-x-x-2-2-x-2-2-
D---7-7-7-7-5-5-5-5-2-x-x-x-2-2-x-2-2-
A---5-5-5-5-3-3-3-3-0-x-x-x-0-0-x-0-0-
D-------------------------------------

e-------------------------------------------------
B-------------------------------------------------
G-7-7-7-7-5-5-5-5---------------------------------
D-7-7-7-7-5-5-5-5---------------------------------
A-5-5-5-5-3-3-3-3---------------------------------
D-----------------5-7-5-7-5-7-5-7-5-7-5-7-5-7-5-7-

Repeat all of that, then end with the intro riff

Bridges1&2:

e---------
B---------
G---------
D---------
A---------
D-5-7-5-7-(repeat those notes as needed, then end with):

e-----------
B-----------
G---7-----7-
D-5-7-7-5-7-
A-5-5-7-5-5-
D-5---7-5---

End song with the intro riff. Still working on the solo.
back to the tab page