Make your own free website on Tripod.com
Here's the tab for "Change".
It's in Dropped D tuning.
Send any corrections, comments, or requests to sl_mcclure@hotmail.com.

Intro/Verse:

e-------------------------------------------------
B-------------------------------------------------
G---------0-----------5-------------0-----------0-
D-------4---4-----------5---------4---4-------2---
A-----5-------5-----3-----3-----5-------5---3-----
D---0-----------0-3---------3-0-----------0-------

e-------------------------------0------------0------
B----------------------------------------------3----
G-------0----------5--------------0---------0----0--
D-----4---4----------5---------4----4-----2--------2
A---5-------5-----3----3-----5--------5-3-----------
D-0-----------0-3--------3-0------------------------

Chorus: F5 G5 D5(x3) C G/B F5

Bridge: D5 F5 G5 F5 G5 F5(x8)
then on "keep on time..." play:

D---------------3-3h5-
A-3h5-5-5-5-3-0-3-3h5- Play 4 times
D-----0-------0-3-3h5-

Again, E-mail me for the solo.
back to the tab page