Make your own free website on Tripod.com
Here's the tab for "Cover Me"
It's in standard tuning.
Send any corrections, comments, or requests to sl_mcclure@hotmail.com.

Intro/Verse: Em G D C9

Chorus: D C9

End of chorus:

e---------------------------3-3-
B---------------------------3-3-
G-------0-----0-----0-----0-0-0-
D-----2-----0-----2-----0---0-0-
A---3-----2-----3-----2-----x-x-
E---------------------------3-2-

Bridge1:

D---2-------------
A---2---------0--- Play 4 times
E---0-0-3-2-3---3-

E-mail me for solo,(it's fairly simple)

Bridge2: "People push and shove on..." 
E5 G5 F#5 G5 A5 G5
back to the tab page