Make your own free website on Tripod.com
Here's the tab for "Crooked Halo"
It's in standard tuning.
Send any corrections, comments, or requests to sl_mcclure@hotmail.com.

Verse:

G---5h7-7-7-7-7-5h7-7-7-7-7-5h7-7-7-7-7-5h7-7-7-7-7-
D---0---0-0-0-0-0---0-0-0-0-0---0-0-0-0-0---0-0-0-0-

B-------------
G-5h7-7-7-7-7-
D-0---0-0-0-0-

first ending:
8-8-8-8-8-8-8-8-8-8-
5-5-5-5-5-5-5-5-5-5-
0-0-0-0-0-0-0-0-0-0-

2nd ending:
7-7-7-7-7-7-7-7-7-7-
5-5-5-5-5-5-5-5-5-5-
0-0-0-0-0-0-0-0-0-0-

Chorus: C9 G D/F#

Bridge: Bm F Bm F A Bb Eb C

The solo to this one is very cool. E-mail me if you want it.

back to the tab page