Make your own free website on Tripod.com
Here's the tab for "Don't You", a very cool song.
It's in Dropped D tuning.
Send any corrections, comments, or requests to sl_mcclure@hotmail.com.

Intro:

e--------------------------------
B--------------------------------
G--------------------------------
D-10-12-12-10-12--10-12-12-10-12-
A-10-12-12-10-12--10-12-12-10-12-
D-10-12-12-10-12--10-12-12-10-12-

e------------------------
B------------------------
G------------------------
D-10-12-12-10-12---------
A-10-12-12-10-12-3-5-5-3-
D-10-12-12-10-12---------

e---------------------------------------
B---------------------------------------
G---------------------------------------
D---------------------------------------
A-5-5-3-5-5-3-5-5-3-5-3-0-3-5-5-3-5-3-0-
D---------------------------------------

e---------------------
B---------3-3-3-------
G---------2-2-2-------
D-3-3-3h5-0-0-0-------
A-3-3-3h5-------3-5-5-
D-3-3-----------------

e-------------------------------------
B-----------------3-3-3---------------
G-----------------2-2-2---------------
D---------3-3-3h5-0-0-0---------------
A-3-5-3-0-3-3-3h5-------3-5-5-3-5-3-0-
D---------3-3-------------------------

e-----------------------
B---------3-3-3---------
G---------2-2-2---------
D-3-3-3h5-0-0-0---------
A-3-3-3h5-------3-5-3-5-
D-3-3-------------------

D-----3---5-3----
A-3-5---5------5-

Verse:

D-----------------3-3-3------------- 7 times, then:
A---3-5-5-3-5-5-5-------5-5-3-5-5-5-

B-------------------------------------------
G-------------------------------------------
D---------------3---5-3-0-----3-------------
A-3-5-5-3-5-3-5---5-------3h5---5-3p0-------
D-------------------------------------3p0-0-

B-6---6---------
G-5---5---------
D-4---4-----3---
A-5---5-3h5---5-
D---0-----------

B-----------6---6-------------------
G-----------5---5-------------------
D-----------4---4-----3-------------
A-3p0-------5---5-3h5---5-3p0-------
D-----3p0-0---0---------------3p0-0-

B-6---6-----------------
G-5---5-----------------
D-4---4-----3-----------
A-5---5-3h5---5-3p0-----
D---0---------------3p0-

D-----3---5-3---
A-3h5---5-----5-
D---------------

Chorus: "This road, it's getting longer..."

e---------------------------------------------------
B-----6-----6-------6-------6-------------6------6--
G-------------------------------5-------------------
D-----3-5---3-5-----3-------3---5-3-5-----3-5----3-5
A-3h5----3h5----3h5---5-3h5---5-3-3-5-3h5-----3h5---
D---------------------------------3-5---------------

e----------------------------------
B-----6--------6-------------------
G------------------5---------------
D-----3-5------3---5-------5p3----- Repeat
A-3h5------3h5---5-3-3-5p3-----5p3-
D----------------------------------

Beginning of Solo:

e------------------------------------------
B---------------------20-20-20-20/19-19-19-
G---19-19-19/17-17-17----------------------
D---------------------17-17-17-17/16-16-16- 3 times
A---17-17-17/15-15-15----------------------
D------------------------------------------

I know the rest of the solo, but again, I'm lazy, E-mail me if you want it.

Outro: 

C5     C#5 D5                           C5
"Oh... I don't need to know how... don't need to 

                    D5
blow out your candle, It's only burning at both ends

F5 G5 C5 (Repeat from first D5, then...)

      Dm7                   D5 C5
going under this time. It's under this time.

     Dm7
You, you've got to go now and don't you 

F5         G5 C5
you've got to...

(Repeat)

Outro Riff:

D-------3---------------3---5-3---
A---3h5---5-3p0-----3h5---5-----5-
D---------------3p0---------------

back to the tab page