Make your own free website on Tripod.com
Here's the tab for "Mother's Dream"
It's in Dropped-D tuning.
Send any corrections, comments, or requests to sl_mcclure@hotmail.com.

Intro:

e---------------------------------------
B---17-------16----------------16-------
G------14-------14----------14----14---- Play 2 1/2 
D------------------14----14------------- times
A---------14----------14-------------14-
D---------------------------------------

e-------------------------------------------------
B-16----16---16----16---16----16---16-17-17-17-17-
G-14----14---14----14---14----14---14-14-14-14-14-
D-14-14-14---14-14-14---14-14-14---14-14-14-14-14-
A-14-14-14---14-14-14---14-14-14---14-14-14-14-14-
D----------0----------0----------0----------------
play 4 times

Chorus: A5 F#m

Solo: E-mail me for it
back to the tab page