Make your own free website on Tripod.com
Here's the tab for "Far Behind"
It's in standard tuning.
Send any corrections, comments, or requests to sl_mcclure@hotmail.com.

Intro/Verse:

e----------------------7-7-7-5-5--2-----------------
B----10----10/12----10-8-8-8-7-7----3-------------3-
G-----------------------------------------------0---
D--------------------------------0----0-------2-----
A-10----10-10/12-10---------------------0-2-3-------
E---------------------------------------------------

Chorus: G5 E5 D5 C5

After solo: 

e---------------------- 
B-------8--------8-8-8- 
G-------7--------7-7-7- Play 7 times then: 
D-------6--------6-6-6- 
A-------7--------7-7-7- 
E---0-0---0-0-0-------- 

e---------------
B---------------
G---------------
D---------------
A-7-5-----------
E-----7-6-5-0-0-

Outro Chorus: G5 E5

I'm too lazy to tab out the solo now, but I do have it figured out, if you want it just E-mail me.
back to the tab page