Make your own free website on Tripod.com
Here's the tab for "Happy Pills"
It's in Dropped-D tuning.
Send any corrections, comments, or requests to sl_mcclure@hotmail.com.

Intro:

e---------------------------------------------------
B---------------------------------------------------
G---------------------------------------------------
D---------------------------------------------------
A---4/6-6-6-6-6-4/7-7-7-7-7-4/6-6-6-6-6-4/7-7-7-7-7-
D---4/6-6-6-6-6-4/7-7-7-7-7-4/6-6-6-6-6-4/7-7-7-7-7-

e---------------------------------------------------
B---------------------------------------------------
G---------------------------------------------------
D---------------------------------------------------
A-4/6-6-6-6-6-4/7-7-7-7-7-4/6-6-6-6-6-4/7-x-x-x-x-x-
D-4/6-6-6-6-6-4/7-7-7-7-7-4/6-6-6-6-6-4/7-x-x-x-x-x-

Guitar2 during Intro:

B---3--5--3--5--7--9---
G---5b-7b-5b-7b-9b-11b-

Verse:

D---4/6-6-x-4/6-6-x-4/6-6-x-4/7-7-7-7-7-
A---4/6-6-x-4/6-6-x-4/6-6-x-4/7-7-7-7-7-
D---------------------------------------

Pre-Chorus:(same as intro)

Chorus:

e---------------------------------------
B---------------------------------------
G---4-------------2---------------------
D---4-----------2---2---2-2-4-4-5-5-7-7-
A---2-2-0-2h4-0-------0-2-2-4-4-5-5-7-7-
D-----------------------2-2-4-4-5-5-7-7-

Sorry, still working on the solo.

back to the tab page