Make your own free website on Tripod.com
Here's the tab for "He Calls Home"
It's in standard tuning.
Send any corrections, comments, or requests to sl_mcclure@hotmail.com.

Intro/Verse:

e-5-5-5-5-5-5-7-7-7-7-7-7-5-5-5-5-5-5-7-7--8p7-7--7-
B-6-6-6-6-6-6-8-8-8-8-8-8-6-6-6-6-6-6-8-8-------8---
G-5-5-5-5-5-5-7-7-7-7-7-7-5-5-5-5-5-5-7-7--------7--
D-0-0-0-0-0-0-0-0-0-0-0-0-0-0-0-0-0-0-0-0-0---0----0
A---------------------------------------------------
E---------------------------------------------------

e-5-5-5-5-5-5-7-7-7-7-7-7-5-5-5-5-5-5-7-7--7--8p7-7-
B-6-6-6-6-6-6-8-8-8-8-8-8-6-6-6-6-6-6-8-8---8-------
G-5-5-5-5-5-5-7-7-7-7-7-7-5-5-5-5-5-5-7-7-----------
D-0-0-0-0-0-0-0-0-0-0-0-0-0-0-0-0-0-0-0-0-0--0---0--
A---------------------------------------------------
E---------------------------------------------------

e-5-5-5-5-5-5-7-7-7-7-7-7-5-5-5-5-5-5-7-7-7-7-7-7-7-
B-6-6-6-6-6-6-8-8-8-8-8-8-6-6-6-6-6-6-8-8-8-8-8-8-8-
G-5-5-5-5-5-5-7-7-7-7-7-7-5-5-5-5-5-5-7-7-7-7-7-7-7-
D-0-0-0-0-0-0-0-0-0-0-0-0-0-0-0-0-0-0-0-0-0-0-0-0-0-
A---------------------------------------------------
E---------------------------------------------------

Pre-Chorus:

e-------------------------------
B-------------3-----------------
G---------------0---0-------0---
D-------3p0-0---------0---3---3- Play 4 times then end on:
A---3h5-----------3-----1-------
E-------------------------------

e--------------------------------------------
B-3-----3-----3-----3-----3-2--2/3-3-3/5-5-5-
G---0-----0-----0-----0-----0--0/0-0-0/0-0-0-
D-----2-----2-----2-----2---2--2/3-3-3/5-5-5-
A--------------------------------------------
E--------------------------------------------

Chorus: D Csus C G F(X3) D C9(X3) F G (Repeat Chorus)
back to the tab page