Make your own free website on Tripod.com
Here's the tab for "10,000 Horses"
It's in standard tuning.
Send any corrections, comments, or requests to sl_mcclure@hotmail.com.

Intro/Verse:

e-----------0---------------0---------------------------------
B-----3---3---3-------3---3---3-------0-------0-----0------0--
G---2---2-------2---0---0-------0---4---4---4---4--2--2---2-2-
D-3---------------2---------------5-------5-------4-----4-----
A-------------------------------------------------------------
E-------------------------------------------------------------

e-----------0---------------0---------2-------2-----0-------0--
B-----3---3---3-------3---3---3--------------------------------
G---2---2-------2---0---0-------0---4---4---4--4---2--2----2-2-
D-3---------------2---------------5-------5------4-------4-----
A--------------------------------------------------------------
E--------------------------------------------------------------

Chorus: A5 G5 B5 F5

Still working on the solo.

back to the tab page