Make your own free website on Tripod.com
Here's the tab for "It's Alright"
It's in standard tuning.
Send any corrections, comments, or requests to sl_mcclure@hotmail.com.

Intro:

e-----3-----------------------------
B-------3---------------------------
G---------0---0---0-----------------
D---3-------2-2p0-0---0h2-2---------
A-------------------3-----3-3-3-2-0-
E-----------------------------------

e---3-------------------------------
B-----3-----------------------------
G-------0---0---0-----0-------0-----
D-3-------2-2p0-0---2---2---0---0---
A-----------------3-------2-------0-
E-----------------------------------

Verse:

e---3-3-3-0-0-0-3-3-3-0-0-0-----
B---3-3-3-3-3-3-3-3-3-3-3---3---
G---0-0-0-0-0-0-0-0-0-0-0-----0-
D---1-1-1-2-2-2-1-1-1-2-2-------
A-------------------------------
E-------------------------------

e-3-3-3-0-0-0-3-3-3-0-0-0-0-----3-------
B-3-3-3-3-3-3-3-3-3-3-3-3---3-----3-----
G-0-0-0-0-0-0-0-0-0-0-0-0-----------0---
D-1-1-1-2-2-2-1-1-1-2-2-2-----3-------2-
A---------------------------------------
E---------------------------------------

e-------------------------3---------------
B---------------------------3-------------
G-0---0-----------------------0---0---0---
D-2p0-0---0h2-2---------3-------2-2p0-0---
A-------3-----3-3-3-2-0-----------------3-
E-----------------------------------------

e-----------------3-----------
B-------------------3---------
G---------------------0---0---
D-0h2-2---------3-------2-2p0-
A-----3-3-3-2-0---------------
E-----------------------------

e---------------------3-------------3-
B-----------------------3-----------3-
G-0-----------------------0---0---0-0-
D-0---0h2-2---------3-------2-2p0-0-2-
A---3-----3-3-3-2-0-----------------3-
E-------------------------------------

Chorus1: Am F C(X3) Am F C G

Guitar2 during Chorus1:

G---5-7br5---5---I-7br5---5---5-7b-7p5---I
D----------7---7-I------7---7----------7-I

Repeat Verse

Chorus2: Am F C(X3) Am F C G

Guitar2 during Chorus2:

G---7b-7p5-----------I-7b-7b-7b-7b-7p5---I
D----------7-7-7p5---I-----------------7-I
A------------------7-I-------------------I

Bridge: B5 Bb5 A5 E5

back to the tab page