Make your own free website on Tripod.com
Here's the tab for "No Sense"
It's in standard tuning.
Send any corrections, comments, or requests to sl_mcclure@hotmail.com.

Intro:

e-----------------------------------
B-----------------------12----------
G---------10---------------12------- Play 3 times
D------------10---------------10----
A------12-------12---10----------10-
E---10-------------8----------------

e---------------------------------
B------------------13-12----------
G-------10---------------12-------
D----------10---------------10----
A----12-------12---------------10-
E-10-------------8----------------

Verse: Dm7 Cmaj7(x8)

Chorus:

e-----------------------------------------
B-----------------------------------------
G---------------3---3---3-3---------------
D-------3---3-5---5---5---------3---3h5-3-
A---3h5---5---3-------------3h5---5-----3-
E---------------------------------------1-

e------------------------------------------------
B-5-5-5-5----------------------------------------
G-5-5-5-5--------------3---3---3-3---------------
D-3-3-3-3-----3---3--5---5---5---------3---3h5-3-
A---------3h5---5----3-------------3h5---5-----3-
E----------------------------------------------1-

E-mail if you want the solo, it would take me forever to tab out now.
back to the tab page