Make your own free website on Tripod.com
Here's the tab for "Offerings"
It's in standard tuning.
Send any corrections, comments, or requests to sl_mcclure@hotmail.com.

Intro: Em D

Verse1:

"Look what you're offering....

e---2-2-2-2-0-0-0-------0-------
B---3-3-3-3-3-3---3-------3-----
G---2-2-2-2-2-2-----2-------2---
D---0-0-0-0-0-0-------0-------0-
A-------------------------------
E-------------------------------

Pre-Chorus:

Em
You've got some time on your hands for where you are
C     G                Em
now...Bleeding the offerings

Repeat

Chorus: Em D

Verse2:

e---2-2-2-2-0-0-0-------0-------
B---3-3-3-3-3-3---3-------3-----
G---2-2-2-2-2-2-----2-------2---
D---0-0-0-0-0-0-------0-------0-

e---2-2-2-2-0-0-3-3-3-3-2-0-
B---3-3-3-3-3-3-3-3-3-3-3-3-
G---2-2-2-2-2-2-2-2-2-2-2-2-
D---0-0-0-0-0-0-0-0-0-0-0-0-

e---2-2-2-2-0-0-2h3p2-------2h3p2-------
B---3-3-3-3-3-3-------3-----------3-----
G---2-2-2-2-2-2---------2-----------2---
D---0-0-0-0-0-0-----------0-----------0-

e---2-2-2-2-0-0-
B---3-3-3-3-3-3-
G---2-2-2-2-2-2- Then go into Pre-Chorus
D---0-0-0-0-0-0-

That's it for the most part, not much to it.
Sorry, don't have the solo yet.

back to the tab page