Make your own free website on Tripod.com
Here's the tab for "Rain"
It's in standard tuning.
Send any corrections, comments, or requests to sl_mcclure@hotmail.com.

Intro:

e---7-7-----------------------------------------
B---7-7-----------------10b----10b----10-12-12b-
G---7-7-7-9p7-9/11-11/7-----11-----11-----------
D-----7-----------------------------------------
A-----9-----------------------------------------
E-----7-----------------------------------------

e-------------------------------
B-10-12-12p10----12-10----------
G-------------11-------11-9p7p6-

Verse1 chords: Bm7   Am7
              e 7     5
                7     5
                7     5
                7     5
                9     7
              E 7     5

        Bm7                           Am7             Bm7
"Well I woke up one morning, I seen my baby fly away

              Am7
Sugar don't go.
e-5--5--7--7------------
B-5--5--7--7------------
G-5----------9br7-9-7---
D-5-------------------9-
A-7---------------------
E-5---------------------

Repeat that except don't play that last riff,
just strum the chord.

"...and I'll cry all alone
G------11------11----11---------9-
D----9-------9----------------8---
A-10------10------10----10--9-----

"Oh, in the rain
e--7--------------7---------
B--7--------------7---------
G----9br7---7-------9br7-9b-
D--------9----9-------------

Verse2: Same as Verse1, except at the very end
        strum Bm7 Am7 Bm7 A5 going into the "Sugar go" part

"Sugar go, Sugar go, you leave me alone as you packed your bags...
B5                                             A5
D-4-4-4-4-4-4-4-4-4-4-4-4-4-4-4-4-4-4-4-4-4-4---------4--4-
A-2-2-2-2-2-2-2-2-2-2-2-2-2-2-2-2-2-2-2-2-2-2--0--0---0--0-

You've got your plane on the road. I said..."
G-2---2---2----2---2--4----4-------2----2---
D-2---2---2----2---2--4----4-------2----2---
A-0---0---0----0---0------------------------

Repeat that until solo
(Three chords leading to solo: G5 F#5 E5)

Solo:

G------------7---------7------------------------------
D-12h14p12/9-7h9-9p7---7------------------------------
A--------------------9---7-------5-7p5--------5-7p5---
E--------------------------9-5h7-------7--5h7-------7-

G-------------7---7-9br7---9-7-------9br7---7b-----9b-
D-5-----7-9p7-7-9--------9-----9-7/2------9----9p7----
A---7h8-----------------------------------------------

e-7-----------------------------------------------------
B---10-------------------7-10----7----7---10----7-10----
G------9br7---9-7-----9b------9b---9b---9----9b------9b-
D-----------9-----9p7-----------------------------------

B-7-10----7-10----7-------------7----7-10----7---------
G------9b------9b---9p7---9p7-----9b------9b---9p7---9-
D-----------------------9-----9--------------------9---

B---7-------------------------7------------------------
G-7-7-7---7-------------------7------------------------
D-------9---9-7h9p7---7---7h9-----7--------------------
A-------------------9---9-------9---9-7/5-7b-5---5-7/9-
E----------------------------------------------7-------

e------------------------10-12-12br10----12-10--------
B-----------7------10-12--------------11-------12br10-
G-------7---7-9/11------------------------------------
D-7-9p7-7-9-------------------------------------------

B----12-10-7-------------------------------
G-11---------9-8-9b-9-7b---9-7-------9-9-9-
D------------------------9-----9-8-7-7---7-

After solo play:

e-----7-7-----------7---7-7-
B-----7-7-----------7h9-9-7-
G-----7-------------7h9-9-7-
D-----7-------------7h9-9---
A-9---9---9-9-------7-------
E-7-7-7---7---7-7-7---------

Repeat that riff through next verse, until "move it on..."

Through "move it on..." play:
e---------------7-7-7-7-7-7-7-7-
B-------------9-7-7-7-7-7-7-7-7-
G-----------7-9-7-7-7-7-7-7-7-7-
D-----------7-9-7---7---7---7--- Play that 4 times, then:
A-7h9p7-7-7-7-------------------
E---7---7-7---------------------

play B5 E5 D5 4 times

Solo:

B-7-7-7-7-7-7-7-7-7-7-7-7-7-7-7-7-7-7-7-9-9-9p0-0-0-
G-7-7-7-7-7-7-7-7-7-7-7-7-7-7-7-7-7-7-7-9-9-9-------

e-----7h10p7----7-----7h10p7----7-----7h10p7----7-----
B-10b--------10---10b--------10---10b--------10---10b-

e-7-10----7---------------------------------------------
B------10---10p7---7----7-----------------7-9-9p7-9-9p7-
G----------------9---10---10-9br7h9-9p7---7-9-9p7-9-9p7-
D---------------------------------------9---------------

B---7-9-7-9-9p7-9-9-7-9-7-----------9-7-9-7-9-9-7-9-7-
G---7-9-7-9-9p7-9-9-7-9-7---7---9---9-7-9-7-9-9-7-9-7-
D-9-----------------------9-7---9-7-9-7-9-7-9-9-7-9---
A-----------------------------9-----------------------

B-------9-7---7-9-9-7---9p7---7-9-9-7-------------------
G---7---9-7-9-7-9-9-7---9p7---7-9-9-7---7---------------
D-9-7-9-9-7-9-7-9-9-7-9-9p7-9-7-9-9-7-9---9p7---7-------
A-----9-----9---------9-----9---------9-------9---9-8-7-

B-------------------7-7-7-7-------------------7-7-7-7-
G-------------------7-7-7-7-------------------7-7-7-7-
D-----------7-9p7-9-------------------7-9p7-9---------
A-----5-7/9---------------------5-7/9-----------------
E-5h7-----------------------5h7-----------------------

e-----7h10p7----7h10p7----7h10p7----7h10p7----7h10p7-
B-10b--------10--------10--------10--------10--------

e----7h10p7----7-12b-12-10-12-10----12-10----------
B-10--------10-------------------12-------12-10----
G-----------------------------------------------11-

B-7-7-7-------7-----9br7---7-9br7---7-9br7-9-7-9br7-
G-7-7-7-------7-7-7-9br7-9-7-9br7-7-7-9br7-9-7-9br7-
D-------9p7-9---------------------------------------

e----------------------------7-7-----7---------------
B-9br7---7-9br7-9-9p7---7----7-7-10b---10p7--------7-
G-9br7---7-9br7-9-9p7---7-9b----------------9br7---7-
D------9--------------9--------------------------9---

When Kevin starts singing "...gonna lay your hat today..."
start playing:
G-----------------------------------7---7-9b-7-9-9-9-7---7-
D-9p7---7---------------------7-9p7---9----------------9---
A-----9---9-8-7/5-7p5---5-7/9------------------------------

G-7-------9-7-----------9-7b-----9---7b-----9---7b-----
D---9-7-9-----9-7-9-7/9------9-7---9----9-7---9----9p7-

G-9br7---9p7---7-------7-
D------9-----9---------7-
A----------------7h8h9---
back to the tab page