Make your own free website on Tripod.com
Here's the tab for "Butterfly (Reprise)"
It's in standard tuning.
Send any corrections, comments, or requests to sl_mcclure@hotmail.com.

Intro/Verse:

e---------------------------
B---------------------------
G-------6-----6-----4-----4-
D-----4---4-------6---6-----
A---5-------5---4-------4---
E---------------------------

Pre-Chorus: F# E Esus E A9 A

Chorus: G E/G# A Bbm Bm

Bridge1:

e---------------------0-----
B-----------3-----------0---
G---------4---4-----------2-
D-------4-----------2-------
A---0h2---------2p0---------
E---------------------------

Bridge2:

e---------------------
B---------------3-----
G-------4-4-4-4-2-2---
D-------4-4-4-4-0-2---
A---0h2-2-2-2-2---0-0-
E---------------------

Solo: E-mail me for it.

Bridge3:

e---------------------------------------------------
B-2h3p2-2h3-2----2h3-2------------------------------
G-------------4--------4-2---------2h4--2-----2-2h4-
D--------------------------4-2------------4-2-------
A------------------------------4-2------------------
E---------------------------------------------------

e-------------------
B---------------2/4-
G-2---2-2-----2-2/4- Then play B5 A5 repeatedly
D---4-----4-2-------
A-------------------
E-------------------

Bridge4:

e--------------------------------
B--------------------------------
G-------------------2-2-2h4--4-4-
D---2-2-2h4---4-4---------------- Then play B5 D5 A5
A--------------------------------
E-3---------3-----3---------3----

Play Bridge1 for the outro.

back to the tab page