Make your own free website on Tripod.com
Here's the tab for "Simple Lessons"
It's in standard tuning.
Send any corrections, comments, or requests to sl_mcclure@hotmail.com.

Intro:

e-----0---------0-------0-------0---
B-------0---------0-------0-----0---
G---------3---------3-------3-------
D---4-------4---------4-----------4-
A---4-----------------4-----------4-
E---2---------2-------2-------2---2-

Chorus: F# A E B

Verse:

e-----------------0---------
B-------------------0---4---
G-----3-----6-------------4-
D-------4-----7-------------
A---------------------2-----
E---2-----5-----0-----------

After chorus, lead into Interlude with C#

back to the tab page