Make your own free website on Tripod.com
Here's the tab for "Sometimes"
It's in standard tuning.
Send any corrections, comments, or requests to sl_mcclure@hotmail.com.

Intro: F Bb

Guitar2 during Intro:

e----------------8/10-8-8h10-8----------------------
B-------6-8/10-8---------------8-8h10-6-6h8-5-3-5-6-
G---5/7---------------------------------------------
D---------------------------------------------------
A---------------------------------------------------
E---------------------------------------------------

Verse: F Bb

Pre-Chorus: "Change directions..." Dm C Bb

Chorus:"Sometimes, sometimes we..." Bb C Dm F

Solo(Rythymn):
Bb Am Dm
Bb Am Dm
F Dm C
F Dm C

Solo(Lead):
e-----------------------------------------5-8-5-8b-8/13-
B-----6-6h8-6-8b-8b-6-----6-----6-8-5-6-8---------------
G-5/7-----------------5/7---5-7-------------------------

e------12--------------------10-10-10-10-10-10/13-13--------
B-10/8--------13-----13------10-10-10-10-10-10-------12br10-
G---------12b----12b----12b--------------------------12br10-

B-------------10-10h13p10----------------------------------
G-------10-12-------------10h12p10-------------------------
D-10/12----------------------------10h12p10-------------10-
A-------------------------------------------10h12p10-12----

G-------12-10-12/14-14-14-12-14-14-12-14-14-12-14-14-12-14-14b
D--10-12------------------------------------------------------
A12-----------------------------------------------------------

Outro: "In my head..." F Ab

back to the tab page