Make your own free website on Tripod.com
Here's the tab for "Step Back"
It's in standard tuning.
Send any corrections, comments, or requests to sl_mcclure@hotmail.com.

Intro:

e------------------------------------------------
B------------------------------------------------
G---9-7-----7-------7-------7-----7-9-9b-9b-9br7-
D---9-7-5/9---9-5/9---9-5/9---9-9----------------
A---7-5------------------------------------------
E------------------------------------------------

e-------------
B-------------
G---7-7h9-9-7-
D-9----------- Repeat, except for the first 2 chords
A-------------
E-------------

Verse: E5 B5 A5

Pre-chorus:

e-----------------------------------------------
B-----------------------------------------------
G---5-5-5-5-2-2-2-2--------5-5-5-5-2-2-2-2------
D---5-5-5-5-2-2-2-2-5-2----5-5-5-5-2-2-2-2--5-2-
A---3-3-3-3-0-0-0-0-5-2----3-3-3-3-0-0-0-0--5-2-
E-------------------3-0---------------------3-0-

Chorus: Repeat Intro

Bridge:

e--------------------------------------
B--------------------------------------
G---5-5-5-5--5-5-5-5--5-5-5-5--5-5-5---
D---5-5-5-5--5-5-5-5--5-5-5-5--5-5-5---
A---3-3-3-3--3-3-3-3--3-3-3-3--3-3-3---
E------------------------------------0-

Repeat that, then play:

B-7-------7---7-------
G---7---7---7---7---7- Then play the above part
D-----7-----------7---

Everything else just repeats. Sorry, don't have the solo yet.

back to the tab page