Make your own free website on Tripod.com
Here's the tab for "Understanding"
It's in standard tuning.
Send any corrections, comments, or requests to sl_mcclure@hotmail.com.

Intro/Verse:

e-------------------
B---------------0---
G-------5---------5- Repeat until "It's all I know"
D-----0---0---0----- then play
A---5-------5-------
E-------------------

G-----2-
D---4--- After this start verse by playing opening
A-2----- riff with different endings every time

1st ending:
B-------------2-----
G-----2---------2---
D---4-------4-----4-
A-2-------2---------

2nd ending:
B---------2-2-2---
G-----2---2-2-2---
D---4-----4-4-4-4-
A-2-------------2-

3rd & 4th ending:
B-----------------2-------
G-----2-----2-------2-----
D---4---4-------4-----4---
A-2-------2---2---------2-

Chorus1: G F B Bm7 G Bb Bm7

Chorus2: G F B Bm7 G Bb B5

Bridge:

e---------------------------------------------------
B-2h3-2-----------------2h3-2-----------------------
G-------2-------2---2---------2-----2h4-----4---4---
D---------2-2h4-----------------2h4-----------------
A-----------------2---2-----------------2-2---2---2-
E---------------------------------------------------
repeat.

back to the tab page