Make your own free website on Tripod.com
Here's the tab for "Vulgar Before Me"
It's in standard tuning.
Send any corrections, comments, or requests to sl_mcclure@hotmail.com.

Intro:

e-------0---------0-----------------0---0---0---
B---------0---------0-4---------------0-0-----0-
G---------------4-------4-4-------------4-------
D-----6-------4-------------4-4/6-------4-------
A---4-------2---------------------4-----2-4-----
E-----------------------------------------------

e-------0-----------------0-----0-----------
B---------0-4---------------0-----0-4-------
G-----4-------4-4---------------------4-4---
D---4-------------4-4/6-------------------4-
A-2---------------------4-----2-------------
E-------------------------------------------

Verse:

e---------0-------0-----------
B-----------0-------0-4-------
G-----------------------4-4---
D---4/6---------4-----------4-
A-------4-----2---------------
E-----------------------------

Chorus:

e-----0----0--------0---------0-----------------0---
B-----0----0----------0---------0-4---------------0-
G-----2----2-/6-------------4-------4-4-------------
D-----------------6-------4-------------4-4/6-------
A-0-0-----------4-------2---------------------4-----
E--------2---/5-------------------------------------

Ending to chorus 1:
e-------0-----
B---------0-4-
G-------------
D-----4-------
A---2---------
E-------------

Ending to chorus2: Bsus

Bridge:

e-------0--0-0-0-----0--0-0-
B-------0--0-0-0-----0--0-0-
G-------4--4-4-4-----4--4-4-
D-------2--2-2-2-4---4--4-4-
A---4-4----------2-2--------
E---------------------------

Outro:

e-------0---------------0---------0-------0-----0---
B-----------4-------------0h2-------0-------0-----0-
G---------4---4-------2-----------------------------
D-----4---------4---2-------------------2-----------
A---2-------------0-------------------0-------4-----
E-----------------------------0-2-------------------

back to the tab page