Make your own free website on Tripod.com
Here's the tab for "You"
It's in standard tuning.
Send any corrections, comments, or requests to sl_mcclure@hotmail.com.

Intro:

B-------------------------------------------
G-2h4-x-4-4-2-4-2-4-x-4-x-4-x-4-4-2h4-x-4-4-

B---------------2-3---
G-2-4-2-4-x-4-4-----2-

Verse:

G---4-x-4-4-2-4-2-4-x-4-x-4-x-4-4- Play 3 times

1st ending:
e-----------2-------------------
B-2-3-2-3-5---5-3-2-3-2-3-2-----
G---------------------------2-2-

2nd ending:
e-------2-5-4-2---2-------------
B-2-3-5---------5---5-3-2-3-----
G---------------------------2-2-

Chorus: G5 A5 B5

Bridge: Bm D5 A5

Bridge2: B5 A5 G5 A5 D5 A5 
         B5 A5 B5 A5 B5 A5 G5 A5 D5 A5 B5 A5 B5 A5

E-mail me for the solo
back to the tab page